ISO-10303-21;
HEADER;
FILE_DESCRIPTION (( 'STEP AP214' ),
    '1' );
FILE_NAME ('am-1529 6mmOD x 4mmID x 16mmt Spacer.STEP',
    '2019-09-18T15:43:41',
    ( '' ),
    ( '' ),
    'SwSTEP 2.0',
    'SolidWorks 2019',
    '' );
FILE_SCHEMA (( 'AUTOMOTIVE_DESIGN' ));
ENDSEC;

DATA;
#1 = SURFACE_SIDE_STYLE ('',( #199 ) ) ;
#2 = ORIENTED_EDGE ( 'NONE', *, *, #137, .T. ) ;
#3 = CARTESIAN_POINT ( 'NONE',  ( 2.100000000000000089, 2.571758278209441957E-16, -8.000000000000000000 ) ) ;
#4 = CARTESIAN_POINT ( 'NONE',  ( 0.0000000000000000000, 0.0000000000000000000, -8.000000000000000000 ) ) ;
#5 =( GEOMETRIC_REPRESENTATION_CONTEXT ( 3 ) GLOBAL_UNCERTAINTY_ASSIGNED_CONTEXT ( ( #148 ) ) GLOBAL_UNIT_ASSIGNED_CONTEXT ( ( #31, #75, #132 ) ) REPRESENTATION_CONTEXT ( 'NONE', 'WORKASPACE' ) );
#6 = ORIENTED_EDGE ( 'NONE', *, *, #18, .T. ) ;
#7 = PLANE ( 'NONE',  #163 ) ;
#8 = CARTESIAN_POINT ( 'NONE',  ( 0.0000000000000000000, 0.0000000000000000000, 0.0000000000000000000 ) ) ;
#9 = DIRECTION ( 'NONE',  ( 1.000000000000000000, 0.0000000000000000000, 0.0000000000000000000 ) ) ;
#10 = DIRECTION ( 'NONE',  ( -0.0000000000000000000, -0.0000000000000000000, -1.000000000000000000 ) ) ;
#11 = VERTEX_POINT ( 'NONE', #23 ) ;
#12 = COLOUR_RGB ( '',0.8431372549019607865, 0.8156862745098039102, 0.7529411764705882248 ) ;
#13 = PLANE ( 'NONE',  #168 ) ;
#14 = SHAPE_DEFINITION_REPRESENTATION ( #98, #25 ) ;
#15 = ORIENTED_EDGE ( 'NONE', *, *, #130, .T. ) ;
#16 = ORIENTED_EDGE ( 'NONE', *, *, #27, .F. ) ;
#17 = ORIENTED_EDGE ( 'NONE', *, *, #113, .T. ) ;
#18 = EDGE_CURVE ( 'NONE', #43, #202, #21, .T. ) ;
#19 = ORIENTED_EDGE ( 'NONE', *, *, #103, .T. ) ;
#20 = FACE_OUTER_BOUND ( 'NONE', #125, .T. ) ;
#21 = CIRCLE ( 'NONE', #69, 2.100000000000000089 ) ;
#22 = DIRECTION ( 'NONE',  ( 1.000000000000000000, 0.0000000000000000000, 0.0000000000000000000 ) ) ;
#23 = CARTESIAN_POINT ( 'NONE',  ( -3.000000000000000444, 0.0000000000000000000, -8.000000000000000000 ) ) ;
#24 = PRODUCT_CONTEXT ( 'NONE', #26, 'mechanical' ) ;
#25 = ADVANCED_BREP_SHAPE_REPRESENTATION ( 'am-1529 6mmOD x 4mmID x 16mmt Spacer', ( #99, #166 ), #149 ) ;
#26 = APPLICATION_CONTEXT ( 'automotive_design' ) ;
#27 = EDGE_CURVE ( 'NONE', #167, #43, #106, .T. ) ;
#28 = DIRECTION ( 'NONE',  ( 0.0000000000000000000, 0.0000000000000000000, 1.000000000000000000 ) ) ;
#29 = CYLINDRICAL_SURFACE ( 'NONE', #204, 3.000000000000000444 ) ;
#30 = FACE_OUTER_BOUND ( 'NONE', #175, .T. ) ;
#31 =( LENGTH_UNIT ( ) NAMED_UNIT ( * ) SI_UNIT ( .MILLI., .METRE. ) );
#32 = ORIENTED_EDGE ( 'NONE', *, *, #181, .F. ) ;
#33 = VECTOR ( 'NONE', #121, 1000.000000000000000 ) ;
#34 = DIRECTION ( 'NONE',  ( 1.000000000000000000, 0.0000000000000000000, 0.0000000000000000000 ) ) ;
#35 = APPLICATION_CONTEXT ( 'automotive_design' ) ;
#36 = ORIENTED_EDGE ( 'NONE', *, *, #135, .F. ) ;
#37 = DIRECTION ( 'NONE',  ( 0.0000000000000000000, 0.0000000000000000000, 1.000000000000000000 ) ) ;
#38 = EDGE_LOOP ( 'NONE', ( #160, #19 ) ) ;
#39 = CARTESIAN_POINT ( 'NONE',  ( 0.0000000000000000000, 0.0000000000000000000, 8.000000000000000000 ) ) ;
#40 = DIRECTION ( 'NONE',  ( -0.0000000000000000000, -0.0000000000000000000, -1.000000000000000000 ) ) ;
#41 = CIRCLE ( 'NONE', #109, 2.100000000000000089 ) ;
#42 = DIRECTION ( 'NONE',  ( -0.0000000000000000000, -0.0000000000000000000, -1.000000000000000000 ) ) ;
#43 = VERTEX_POINT ( 'NONE', #60 ) ;
#44 =( LENGTH_UNIT ( ) NAMED_UNIT ( * ) SI_UNIT ( .MILLI., .METRE. ) );
#45 = PRODUCT_DEFINITION ( 'UNKNOWN', '', #182, #46 ) ;
#46 = PRODUCT_DEFINITION_CONTEXT ( 'detailed design', #35, 'design' ) ;
#47 = EDGE_LOOP ( 'NONE', ( #6, #17 ) ) ;
#48 = CYLINDRICAL_SURFACE ( 'NONE', #154, 3.000000000000000444 ) ;
#49 = ORIENTED_EDGE ( 'NONE', *, *, #77, .F. ) ;
#50 = CIRCLE ( 'NONE', #159, 2.100000000000000089 ) ;
#51 = FILL_AREA_STYLE ('',( #52 ) ) ;
#52 = FILL_AREA_STYLE_COLOUR ( '', #12 ) ;
#53 = CIRCLE ( 'NONE', #96, 2.100000000000000089 ) ;
#54 = EDGE_CURVE ( 'NONE', #209, #129, #117, .T. ) ;
#55 = FILL_AREA_STYLE_COLOUR ( '', #171 ) ;
#56 = CARTESIAN_POINT ( 'NONE',  ( 0.0000000000000000000, 0.0000000000000000000, 8.000000000000000000 ) ) ;
#57 =( GEOMETRIC_REPRESENTATION_CONTEXT ( 3 ) GLOBAL_UNCERTAINTY_ASSIGNED_CONTEXT ( ( #110 ) ) GLOBAL_UNIT_ASSIGNED_CONTEXT ( ( #44, #201, #127 ) ) REPRESENTATION_CONTEXT ( 'NONE', 'WORKASPACE' ) );
#58 = ORIENTED_EDGE ( 'NONE', *, *, #113, .F. ) ;
#59 = PRESENTATION_STYLE_ASSIGNMENT (( #116 ) ) ;
#60 = CARTESIAN_POINT ( 'NONE',  ( -2.100000000000000089, 0.0000000000000000000, -8.000000000000000000 ) ) ;
#61 = DIRECTION ( 'NONE',  ( 0.0000000000000000000, 0.0000000000000000000, 1.000000000000000000 ) ) ;
#62 = DIRECTION ( 'NONE',  ( 1.000000000000000000, 0.0000000000000000000, 0.0000000000000000000 ) ) ;
#63 = CARTESIAN_POINT ( 'NONE',  ( 2.100000000000000089, 2.571758278209441957E-16, 8.000000000000000000 ) ) ;
#64 = CARTESIAN_POINT ( 'NONE',  ( -2.100000000000000089, 0.0000000000000000000, 8.000000000000000000 ) ) ;
#65 = ORIENTED_EDGE ( 'NONE', *, *, #54, .T. ) ;
#66 = DIRECTION ( 'NONE',  ( 1.000000000000000000, 0.0000000000000000000, -0.0000000000000000000 ) ) ;
#67 = AXIS2_PLACEMENT_3D ( 'NONE', #80, #42, #138 ) ;
#68 = CARTESIAN_POINT ( 'NONE',  ( 0.0000000000000000000, 0.0000000000000000000, 8.000000000000000000 ) ) ;
#69 = AXIS2_PLACEMENT_3D ( 'NONE', #119, #156, #85 ) ;
#70 = CARTESIAN_POINT ( 'NONE',  ( 0.0000000000000000000, 0.0000000000000000000, 8.000000000000000000 ) ) ;
#71 = DIRECTION ( 'NONE',  ( 1.000000000000000000, 0.0000000000000000000, 0.0000000000000000000 ) ) ;
#72 = STYLED_ITEM ( 'NONE', ( #131 ), #99 ) ;
#73 = DIRECTION ( 'NONE',  ( 1.000000000000000000, 0.0000000000000000000, -0.0000000000000000000 ) ) ;
#74 = DIRECTION ( 'NONE',  ( 0.0000000000000000000, 0.0000000000000000000, 1.000000000000000000 ) ) ;
#75 =( NAMED_UNIT ( * ) PLANE_ANGLE_UNIT ( ) SI_UNIT ( $, .RADIAN. ) );
#76 = CARTESIAN_POINT ( 'NONE',  ( 0.0000000000000000000, 0.0000000000000000000, 8.000000000000000000 ) ) ;
#77 = EDGE_CURVE ( 'NONE', #167, #122, #50, .T. ) ;
#78 = CARTESIAN_POINT ( 'NONE',  ( -3.000000000000000444, 0.0000000000000000000, 8.000000000000000000 ) ) ;
#79 = EDGE_LOOP ( 'NONE', ( #90, #2, #112, #58 ) ) ;
#80 = CARTESIAN_POINT ( 'NONE',  ( 0.0000000000000000000, 0.0000000000000000000, 8.000000000000000000 ) ) ;
#81 = APPLICATION_PROTOCOL_DEFINITION ( 'draft international standard', 'automotive_design', 1998, #26 ) ;
#82 = VECTOR ( 'NONE', #40, 1000.000000000000000 ) ;
#83 =( NAMED_UNIT ( * ) SI_UNIT ( $, .STERADIAN. ) SOLID_ANGLE_UNIT ( ) );
#84 = VECTOR ( 'NONE', #10, 1000.000000000000000 ) ;
#85 = DIRECTION ( 'NONE',  ( 1.000000000000000000, 0.0000000000000000000, 0.0000000000000000000 ) ) ;
#86 = VERTEX_POINT ( 'NONE', #78 ) ;
#87 = ADVANCED_FACE ( 'NONE', ( #30, #94 ), #13, .F. ) ;
#88 = CARTESIAN_POINT ( 'NONE',  ( 0.0000000000000000000, 0.0000000000000000000, -8.000000000000000000 ) ) ;
#89 = PRESENTATION_LAYER_ASSIGNMENT (  '', '', ( #72 ) ) ;
#90 = ORIENTED_EDGE ( 'NONE', *, *, #153, .F. ) ;
#91 = CIRCLE ( 'NONE', #114, 3.000000000000000444 ) ;
#92 = DIRECTION ( 'NONE',  ( 0.0000000000000000000, 0.0000000000000000000, 1.000000000000000000 ) ) ;
#93 = CLOSED_SHELL ( 'NONE', ( #198, #169, #97, #87, #186, #120 ) ) ;
#94 = FACE_BOUND ( 'NONE', #47, .T. ) ;
#95 = CYLINDRICAL_SURFACE ( 'NONE', #67, 2.100000000000000089 ) ;
#96 = AXIS2_PLACEMENT_3D ( 'NONE', #88, #212, #34 ) ;
#97 = ADVANCED_FACE ( 'NONE', ( #162, #111 ), #7, .T. ) ;
#98 = PRODUCT_DEFINITION_SHAPE ( 'NONE', 'NONE',  #45 ) ;
#99 = MANIFOLD_SOLID_BREP ( 'Extrude1', #93 ) ;
#100 = CARTESIAN_POINT ( 'NONE',  ( 3.000000000000000444, 3.673940397442060361E-16, -8.000000000000000000 ) ) ;
#101 = VECTOR ( 'NONE', #139, 1000.000000000000000 ) ;
#102 = DIRECTION ( 'NONE',  ( 0.0000000000000000000, 0.0000000000000000000, 1.000000000000000000 ) ) ;
#103 = EDGE_CURVE ( 'NONE', #209, #86, #214, .T. ) ;
#104 = DIRECTION ( 'NONE',  ( -1.000000000000000000, 0.0000000000000000000, 0.0000000000000000000 ) ) ;
#105 = DIRECTION ( 'NONE',  ( 1.000000000000000000, 0.0000000000000000000, 0.0000000000000000000 ) ) ;
#106 = LINE ( 'NONE', #172, #82 ) ;
#107 = DIRECTION ( 'NONE',  ( -0.0000000000000000000, -0.0000000000000000000, -1.000000000000000000 ) ) ;
#108 = CARTESIAN_POINT ( 'NONE',  ( 3.000000000000000444, 3.673940397442060361E-16, 8.000000000000000000 ) ) ;
#109 = AXIS2_PLACEMENT_3D ( 'NONE', #39, #142, #177 ) ;
#110 = UNCERTAINTY_MEASURE_WITH_UNIT (LENGTH_MEASURE( 1.000000000000000082E-05 ), #44, 'distance_accuracy_value', 'NONE');
#111 = FACE_BOUND ( 'NONE', #173, .T. ) ;
#112 = ORIENTED_EDGE ( 'NONE', *, *, #27, .T. ) ;
#113 = EDGE_CURVE ( 'NONE', #202, #43, #53, .T. ) ;
#114 = AXIS2_PLACEMENT_3D ( 'NONE', #208, #140, #71 ) ;
#115 = CARTESIAN_POINT ( 'NONE',  ( 2.100000000000000089, 2.571758278209441957E-16, 8.000000000000000000 ) ) ;
#116 = SURFACE_STYLE_USAGE ( .BOTH. , #192 ) ;
#117 = LINE ( 'NONE', #207, #101 ) ;
#118 = LINE ( 'NONE', #178, #33 ) ;
#119 = CARTESIAN_POINT ( 'NONE',  ( 0.0000000000000000000, 0.0000000000000000000, -8.000000000000000000 ) ) ;
#120 = ADVANCED_FACE ( 'NONE', ( #203 ), #196, .F. ) ;
#121 = DIRECTION ( 'NONE',  ( -0.0000000000000000000, -0.0000000000000000000, -1.000000000000000000 ) ) ;
#122 = VERTEX_POINT ( 'NONE', #115 ) ;
#123 = AXIS2_PLACEMENT_3D ( 'NONE', #189, #74, #62 ) ;
#124 = DIRECTION ( 'NONE',  ( -0.0000000000000000000, -0.0000000000000000000, -1.000000000000000000 ) ) ;
#125 = EDGE_LOOP ( 'NONE', ( #211, #155, #188, #16 ) ) ;
#126 = ORIENTED_EDGE ( 'NONE', *, *, #137, .F. ) ;
#127 =( NAMED_UNIT ( * ) SI_UNIT ( $, .STERADIAN. ) SOLID_ANGLE_UNIT ( ) );
#128 = STYLED_ITEM ( 'NONE', ( #59 ), #25 ) ;
#129 = VERTEX_POINT ( 'NONE', #100 ) ;
#130 = EDGE_CURVE ( 'NONE', #11, #129, #91, .T. ) ;
#131 = PRESENTATION_STYLE_ASSIGNMENT (( #180 ) ) ;
#132 =( NAMED_UNIT ( * ) SI_UNIT ( $, .STERADIAN. ) SOLID_ANGLE_UNIT ( ) );
#133 = AXIS2_PLACEMENT_3D ( 'NONE', #68, #37, #9 ) ;
#134 = DIRECTION ( 'NONE',  ( -0.0000000000000000000, -0.0000000000000000000, -1.000000000000000000 ) ) ;
#135 = EDGE_CURVE ( 'NONE', #129, #11, #176, .T. ) ;
#136 = FACE_OUTER_BOUND ( 'NONE', #144, .T. ) ;
#137 = EDGE_CURVE ( 'NONE', #122, #167, #41, .T. ) ;
#138 = DIRECTION ( 'NONE',  ( -1.000000000000000000, 0.0000000000000000000, 0.0000000000000000000 ) ) ;
#139 = DIRECTION ( 'NONE',  ( -0.0000000000000000000, -0.0000000000000000000, -1.000000000000000000 ) ) ;
#140 = DIRECTION ( 'NONE',  ( 0.0000000000000000000, 0.0000000000000000000, 1.000000000000000000 ) ) ;
#141 = EDGE_LOOP ( 'NONE', ( #191, #205, #174, #15 ) ) ;
#142 = DIRECTION ( 'NONE',  ( 0.0000000000000000000, 0.0000000000000000000, 1.000000000000000000 ) ) ;
#143 = ORIENTED_EDGE ( 'NONE', *, *, #130, .F. ) ;
#144 = EDGE_LOOP ( 'NONE', ( #187, #65, #195, #32 ) ) ;
#145 =( LENGTH_UNIT ( ) NAMED_UNIT ( * ) SI_UNIT ( .MILLI., .METRE. ) );
#146 = CARTESIAN_POINT ( 'NONE',  ( 0.0000000000000000000, 0.0000000000000000000, 8.000000000000000000 ) ) ;
#147 = DIRECTION ( 'NONE',  ( 0.0000000000000000000, 0.0000000000000000000, 1.000000000000000000 ) ) ;
#148 = UNCERTAINTY_MEASURE_WITH_UNIT (LENGTH_MEASURE( 1.000000000000000082E-05 ), #31, 'distance_accuracy_value', 'NONE');
#149 =( GEOMETRIC_REPRESENTATION_CONTEXT ( 3 ) GLOBAL_UNCERTAINTY_ASSIGNED_CONTEXT ( ( #197 ) ) GLOBAL_UNIT_ASSIGNED_CONTEXT ( ( #145, #184, #83 ) ) REPRESENTATION_CONTEXT ( 'NONE', 'WORKASPACE' ) );
#150 = EDGE_CURVE ( 'NONE', #86, #209, #161, .T. ) ;
#151 = PRESENTATION_LAYER_ASSIGNMENT (  '', '', ( #128 ) ) ;
#152 = FILL_AREA_STYLE ('',( #55 ) ) ;
#153 = EDGE_CURVE ( 'NONE', #122, #202, #193, .T. ) ;
#154 = AXIS2_PLACEMENT_3D ( 'NONE', #56, #124, #206 ) ;
#155 = ORIENTED_EDGE ( 'NONE', *, *, #153, .T. ) ;
#156 = DIRECTION ( 'NONE',  ( 0.0000000000000000000, 0.0000000000000000000, 1.000000000000000000 ) ) ;
#157 = APPLICATION_PROTOCOL_DEFINITION ( 'draft international standard', 'automotive_design', 1998, #35 ) ;
#158 = PRODUCT_RELATED_PRODUCT_CATEGORY ( 'part', '', ( #200 ) ) ;
#159 = AXIS2_PLACEMENT_3D ( 'NONE', #210, #28, #22 ) ;
#160 = ORIENTED_EDGE ( 'NONE', *, *, #150, .T. ) ;
#161 = CIRCLE ( 'NONE', #123, 3.000000000000000444 ) ;
#162 = FACE_OUTER_BOUND ( 'NONE', #38, .T. ) ;
#163 = AXIS2_PLACEMENT_3D ( 'NONE', #76, #147, #66 ) ;
#164 = CARTESIAN_POINT ( 'NONE',  ( 0.0000000000000000000, 0.0000000000000000000, -8.000000000000000000 ) ) ;
#165 = AXIS2_PLACEMENT_3D ( 'NONE', #146, #134, #213 ) ;
#166 = AXIS2_PLACEMENT_3D ( 'NONE', #8, #102, #185 ) ;
#167 = VERTEX_POINT ( 'NONE', #64 ) ;
#168 = AXIS2_PLACEMENT_3D ( 'NONE', #164, #92, #73 ) ;
#169 = ADVANCED_FACE ( 'NONE', ( #136 ), #48, .T. ) ;
#170 = SURFACE_STYLE_FILL_AREA ( #152 ) ;
#171 = COLOUR_RGB ( '',0.8431372549019607865, 0.8156862745098039102, 0.7529411764705882248 ) ;
#172 = CARTESIAN_POINT ( 'NONE',  ( -2.100000000000000089, 0.0000000000000000000, 8.000000000000000000 ) ) ;
#173 = EDGE_LOOP ( 'NONE', ( #49, #126 ) ) ;
#174 = ORIENTED_EDGE ( 'NONE', *, *, #181, .T. ) ;
#175 = EDGE_LOOP ( 'NONE', ( #143, #36 ) ) ;
#176 = CIRCLE ( 'NONE', #179, 3.000000000000000444 ) ;
#177 = DIRECTION ( 'NONE',  ( 1.000000000000000000, 0.0000000000000000000, 0.0000000000000000000 ) ) ;
#178 = CARTESIAN_POINT ( 'NONE',  ( -3.000000000000000444, 0.0000000000000000000, 8.000000000000000000 ) ) ;
#179 = AXIS2_PLACEMENT_3D ( 'NONE', #4, #61, #105 ) ;
#180 = SURFACE_STYLE_USAGE ( .BOTH. , #1 ) ;
#181 = EDGE_CURVE ( 'NONE', #86, #11, #118, .T. ) ;
#182 = PRODUCT_DEFINITION_FORMATION_WITH_SPECIFIED_SOURCE ( 'ANY', '', #200, .NOT_KNOWN. ) ;
#183 = MECHANICAL_DESIGN_GEOMETRIC_PRESENTATION_REPRESENTATION (  '', ( #72 ), #5 ) ;
#184 =( NAMED_UNIT ( * ) PLANE_ANGLE_UNIT ( ) SI_UNIT ( $, .RADIAN. ) );
#185 = DIRECTION ( 'NONE',  ( 1.000000000000000000, 0.0000000000000000000, 0.0000000000000000000 ) ) ;
#186 = ADVANCED_FACE ( 'NONE', ( #190 ), #29, .T. ) ;
#187 = ORIENTED_EDGE ( 'NONE', *, *, #103, .F. ) ;
#188 = ORIENTED_EDGE ( 'NONE', *, *, #18, .F. ) ;
#189 = CARTESIAN_POINT ( 'NONE',  ( 0.0000000000000000000, 0.0000000000000000000, 8.000000000000000000 ) ) ;
#190 = FACE_OUTER_BOUND ( 'NONE', #141, .T. ) ;
#191 = ORIENTED_EDGE ( 'NONE', *, *, #54, .F. ) ;
#192 = SURFACE_SIDE_STYLE ('',( #170 ) ) ;
#193 = LINE ( 'NONE', #63, #84 ) ;
#194 = MECHANICAL_DESIGN_GEOMETRIC_PRESENTATION_REPRESENTATION (  '', ( #128 ), #57 ) ;
#195 = ORIENTED_EDGE ( 'NONE', *, *, #135, .T. ) ;
#196 = CYLINDRICAL_SURFACE ( 'NONE', #165, 2.100000000000000089 ) ;
#197 = UNCERTAINTY_MEASURE_WITH_UNIT (LENGTH_MEASURE( 1.000000000000000082E-05 ), #145, 'distance_accuracy_value', 'NONE');
#198 = ADVANCED_FACE ( 'NONE', ( #20 ), #95, .F. ) ;
#199 = SURFACE_STYLE_FILL_AREA ( #51 ) ;
#200 = PRODUCT ( 'am-1529 6mmOD x 4mmID x 16mmt Spacer', 'am-1529 6mmOD x 4mmID x 16mmt Spacer', '', ( #24 ) ) ;
#201 =( NAMED_UNIT ( * ) PLANE_ANGLE_UNIT ( ) SI_UNIT ( $, .RADIAN. ) );
#202 = VERTEX_POINT ( 'NONE', #3 ) ;
#203 = FACE_OUTER_BOUND ( 'NONE', #79, .T. ) ;
#204 = AXIS2_PLACEMENT_3D ( 'NONE', #70, #107, #104 ) ;
#205 = ORIENTED_EDGE ( 'NONE', *, *, #150, .F. ) ;
#206 = DIRECTION ( 'NONE',  ( -1.000000000000000000, 0.0000000000000000000, 0.0000000000000000000 ) ) ;
#207 = CARTESIAN_POINT ( 'NONE',  ( 3.000000000000000444, 3.673940397442060361E-16, 8.000000000000000000 ) ) ;
#208 = CARTESIAN_POINT ( 'NONE',  ( 0.0000000000000000000, 0.0000000000000000000, -8.000000000000000000 ) ) ;
#209 = VERTEX_POINT ( 'NONE', #108 ) ;
#210 = CARTESIAN_POINT ( 'NONE',  ( 0.0000000000000000000, 0.0000000000000000000, 8.000000000000000000 ) ) ;
#211 = ORIENTED_EDGE ( 'NONE', *, *, #77, .T. ) ;
#212 = DIRECTION ( 'NONE',  ( 0.0000000000000000000, 0.0000000000000000000, 1.000000000000000000 ) ) ;
#213 = DIRECTION ( 'NONE',  ( -1.000000000000000000, 0.0000000000000000000, 0.0000000000000000000 ) ) ;
#214 = CIRCLE ( 'NONE', #133, 3.000000000000000444 ) ;
ENDSEC;
END-ISO-10303-21;
